  0
SECTION
  2
HEADER
  9
$ACADVER
  1
AC1015
  9
$ACADMAINTVER
 70
     6
  9
$DWGCODEPAGE
  3
ANSI_1254
  9
$INSBASE
 10
0.0
 20
0.0
 30
0.0
  9
$EXTMIN
 10
0.0
 20
0.0
 30
0.0
  9
$EXTMAX
 10
279.4
 20
215.9
 30
0.0
  9
$LIMMIN
 10
0.0
 20
0.0
  9
$LIMMAX
 10
279.4
 20
215.9
  9
$ORTHOMODE
 70
     0
  9
$REGENMODE
 70
     1
  9
$FILLMODE
 70
     1
  9
$QTEXTMODE
 70
     0
  9
$MIRRTEXT
 70
     1
  9
$LTSCALE
 40
1.0
  9
$ATTMODE
 70
     1
  9
$TEXTSIZE
 40
3.5
  9
$TRACEWID
 40
1.0
  9
$TEXTSTYLE
  7
Standard
  9
$CLAYER
  8
0
  9
$CELTYPE
  6
ByLayer
  9
$CECOLOR
 62
   256
  9
$CELTSCALE
 40
1.0
  9
$DISPSILH
 70
     0
  9
$DIMSCALE
 40
1.0
  9
$DIMASZ
 40
3.5
  9
$DIMEXO
 40
1.0
  9
$DIMDLI
 40
3.75
  9
$DIMRND
 40
0.0
  9
$DIMDLE
 40
0.0
  9
$DIMEXE
 40
1.0
  9
$DIMTP
 40
0.0
  9
$DIMTM
 40
0.0
  9
$DIMTXT
 40
3.5
  9
$DIMCEN
 40
2.5
  9
$DIMTSZ
 40
0.0
  9
$DIMTOL
 70
     0
  9
$DIMLIM
 70
     0
  9
$DIMTIH
 70
     1
  9
$DIMTOH
 70
     1
  9
$DIMSE1
 70
     0
  9
$DIMSE2
 70
     0
  9
$DIMTAD
 70
     1
  9
$DIMZIN
 70
     0
  9
$DIMBLK
  1

  9
$DIMASO
 70
     1
  9
$DIMSHO
 70
     1
  9
$DIMPOST
  1

  9
$DIMAPOST
  1

  9
$DIMALT
 70
     0
  9
$DIMALTD
 70
     3
  9
$DIMALTF
 40
0.0393700787
  9
$DIMLFAC
 40
1.0
  9
$DIMTOFL
 70
     1
  9
$DIMTVP
 40
0.0
  9
$DIMTIX
 70
     0
  9
$DIMSOXD
 70
     0
  9
$DIMSAH
 70
     0
  9
$DIMBLK1
  1

  9
$DIMBLK2
  1

  9
$DIMSTYLE
  2
ISO-25
  9
$DIMCLRD
 70
     0
  9
$DIMCLRE
 70
     0
  9
$DIMCLRT
 70
     0
  9
$DIMTFAC
 40
1.0
  9
$DIMGAP
 40
1.524
  9
$DIMJUST
 70
     0
  9
$DIMSD1
 70
     0
  9
$DIMSD2
 70
     0
  9
$DIMTOLJ
 70
     0
  9
$DIMTZIN
 70
     0
  9
$DIMALTZ
 70
     0
  9
$DIMALTTZ
 70
     0
  9
$DIMUPT
 70
     0
  9
$DIMDEC
 70
     2
  9
$DIMTDEC
 70
     2
  9
$DIMALTU
 70
     2
  9
$DIMALTTD
 70
     3
  9
$DIMTXSTY
  7
Standard
  9
$DIMAUNIT
 70
     0
  9
$DIMADEC
 70
     2
  9
$DIMALTRND
 40
0.0
  9
$DIMAZIN
 70
     0
  9
$DIMDSEP
 70
    44
  9
$DIMATFIT
 70
     3
  9
$DIMFRAC
 70
     0
  9
$DIMLDRBLK
  1

  9
$DIMLUNIT
 70
     2
  9
$DIMLWD
 70
    -2
  9
$DIMLWE
 70
    -2
  9
$DIMTMOVE
 70
     0
  9
$LUNITS
 70
     2
  9
$LUPREC
 70
     2
  9
$SKETCHINC
 40
1.0
  9
$FILLETRAD
 40
10.0
  9
$AUNITS
 70
     0
  9
$AUPREC
 70
     2
  9
$MENU
  1
.
  9
$ELEVATION
 40
0.0
  9
$PELEVATION
 40
0.0
  9
$THICKNESS
 40
0.0
  9
$LIMCHECK
 70
     0
  9
$CHAMFERA
 40
0.0
  9
$CHAMFERB
 40
0.0
  9
$CHAMFERC
 40
0.0
  9
$CHAMFERD
 40
0.0
  9
$SKPOLY
 70
     0
  9
$TDCREATE
 40
2458985.682166343
  9
$TDUCREATE
 40
2458985.557166343
  9
$TDUPDATE
 40
2458985.682166748
  9
$TDUUPDATE
 40
2458985.557166748
  9
$TDINDWG
 40
0.0000000116
  9
$TDUSRTIMER
 40
0.0000000116
  9
$USRTIMER
 70
     1
  9
$ANGBASE
 50
0.0
  9
$ANGDIR
 70
     0
  9
$PDMODE
 70
     0
  9
$PDSIZE
 40
-1.0
  9
$PLINEWID
 40
0.0
  9
$SPLFRAME
 70
     0
  9
$SPLINETYPE
 70
     6
  9
$SPLINESEGS
 70
     8
  9
$HANDSEED
  5
CB
  9
$SURFTAB1
 70
     6
  9
$SURFTAB2
 70
     6
  9
$SURFTYPE
 70
     6
  9
$SURFU
 70
     6
  9
$SURFV
 70
     6
  9
$UCSBASE
  2

  9
$UCSNAME
  2

  9
$UCSORG
 10
0.0
 20
0.0
 30
0.0
  9
$UCSXDIR
 10
1.0
 20
0.0
 30
0.0
  9
$UCSYDIR
 10
0.0
 20
1.0
 30
0.0
  9
$UCSORTHOREF
  2

  9
$UCSORTHOVIEW
 70
     0
  9
$UCSORGTOP
 10
0.0
 20
0.0
 30
0.0
  9
$UCSORGBOTTOM
 10
0.0
 20
0.0
 30
0.0
  9
$UCSORGLEFT
 10
0.0
 20
0.0
 30
0.0
  9
$UCSORGRIGHT
 10
0.0
 20
0.0
 30
0.0
  9
$UCSORGFRONT
 10
0.0
 20
0.0
 30
0.0
  9
$UCSORGBACK
 10
0.0
 20
0.0
 30
0.0
  9
$PUCSBASE
  2

  9
$PUCSNAME
  2

  9
$PUCSORG
 10
0.0
 20
0.0
 30
0.0
  9
$PUCSXDIR
 10
1.0
 20
0.0
 30
0.0
  9
$PUCSYDIR
 10
0.0
 20
1.0
 30
0.0
  9
$PUCSORTHOREF
  2

  9
$PUCSORTHOVIEW
 70
     0
  9
$PUCSORGTOP
 10
0.0
 20
0.0
 30
0.0
  9
$PUCSORGBOTTOM
 10
0.0
 20
0.0
 30
0.0
  9
$PUCSORGLEFT
 10
0.0
 20
0.0
 30
0.0
  9
$PUCSORGRIGHT
 10
0.0
 20
0.0
 30
0.0
  9
$PUCSORGFRONT
 10
0.0
 20
0.0
 30
0.0
  9
$PUCSORGBACK
 10
0.0
 20
0.0
 30
0.0
  9
$USERI1
 70
     0
  9
$USERI2
 70
     0
  9
$USERI3
 70
     0
  9
$USERI4
 70
     0
  9
$USERI5
 70
     0
  9
$USERR1
 40
0.0
  9
$USERR2
 40
0.0
  9
$USERR3
 40
0.0
  9
$USERR4
 40
0.0
  9
$USERR5
 40
0.0
  9
$WORLDVIEW
 70
     1
  9
$SHADEDGE
 70
     3
  9
$SHADEDIF
 70
    70
  9
$TILEMODE
 70
     1
  9
$MAXACTVP
 70
    64
  9
$PINSBASE
 10
0.0
 20
0.0
 30
0.0
  9
$PLIMCHECK
 70
     0
  9
$PEXTMIN
 10
1.0000000000E+20
 20
1.0000000000E+20
 30
1.0000000000E+20
  9
$PEXTMAX
 10
-1.0000000000E+20
 20
-1.0000000000E+20
 30
-1.0000000000E+20
  9
$PLIMMIN
 10
0.0
 20
0.0
  9
$PLIMMAX
 10
420.0
 20
297.0
  9
$UNITMODE
 70
     0
  9
$VISRETAIN
 70
     1
  9
$PLINEGEN
 70
     0
  9
$PSLTSCALE
 70
     1
  9
$TREEDEPTH
 70
  3020
  9
$CMLSTYLE
  2
Standard
  9
$CMLJUST
 70
     0
  9
$CMLSCALE
 40
20.0
  9
$PROXYGRAPHICS
 70
     1
  9
$MEASUREMENT
 70
     1
  9
$CELWEIGHT
370
    -1
  9
$ENDCAPS
280
     0
  9
$JOINSTYLE
280
     0
  9
$LWDISPLAY
290
     1
  9
$INSUNITS
 70
     4
  9
$HYPERLINKBASE
  1

  9
$STYLESHEET
  1

  9
$XEDIT
290
     1
  9
$CEPSNTYPE
380
     0
  9
$PSTYLEMODE
290
     1
  9
$FINGERPRINTGUID
  2
{4aafe245-5b22-4f90-b2d5-602ac7d82b15}
  9
$VERSIONGUID
  2
{FAEB1C32-E019-11D5-929B-00C0DF256EC4}
  9
$EXTNAMES
290
     1
  9
$PSVPSCALE
 40
0.0
  9
$OLESTARTUP
290
     0
  0
ENDSEC
  0
SECTION
  2
CLASSES
  0
CLASS
  1
ACDBDICTIONARYWDFLT
  2
AcDbDictionaryWithDefault
  3
ObjectDBX Classes
 90
        0
280
     0
281
     0
  0
CLASS
  1
VISUALSTYLE
  2
AcDbVisualStyle
  3
ObjectDBX Classes
 90
     4095
280
     0
281
     0
  0
CLASS
  1
MATERIAL
  2
AcDbMaterial
  3
ObjectDBX Classes
 90
     1153
280
     0
281
     0
  0
CLASS
  1
SCALE
  2
AcDbScale
  3
ObjectDBX Classes
 90
     1153
280
     0
281
     0
  0
CLASS
  1
TABLESTYLE
  2
AcDbTableStyle
  3
ObjectDBX Classes
 90
     4095
280
     0
281
     0
  0
CLASS
  1
MLEADERSTYLE
  2
AcDbMLeaderStyle
  3
ACDB_MLEADERSTYLE_CLASS
 90
     4095
280
     0
281
     0
  0
CLASS
  1
SUN
  2
AcDbSun
  3
SCENEOE
 90
     1153
280
     0
281
     0
  0
CLASS
  1
ACDBPLACEHOLDER
  2
AcDbPlaceHolder
  3
ObjectDBX Classes
 90
        0
280
     0
281
     0
  0
CLASS
  1
LAYOUT
  2
AcDbLayout
  3
ObjectDBX Classes
 90
        0
280
     0
281
     0
  0
ENDSEC
  0
SECTION
  2
TABLES
  0
TABLE
  2
VPORT
  5
8
330
0
100
AcDbSymbolTable
 70
     1
  0
VPORT
  5
29
330
8
100
AcDbSymbolTableRecord
100
AcDbViewportTableRecord
  2
*Active
 70
     0
 10
0.0
 20
0.0
 11
1.0
 21
1.0
 12
139.7
 22
107.95
 13
0.0
 23
0.0
 14
10.0
 24
10.0
 15
10.0
 25
10.0
 16
0.0
 26
0.0
 36
1.0
 17
0.0
 27
0.0
 37
0.0
 40
215.9
 41
1.2941176471
 42
50.0
 43
0.0
 44
0.0
 50
0.0
 51
0.0
 71
     0
 72
  2000
 73
     1
 74
     3
 75
     0
 76
     0
 77
     0
 78
     0
281
     0
 65
     1
110
0.0
120
0.0
130
0.0
111
1.0
121
0.0
131
0.0
112
0.0
122
1.0
132
0.0
 79
     0
146
0.0
  0
ENDTAB
  0
TABLE
  2
LTYPE
  5
5
330
0
100
AcDbSymbolTable
 70
     6
  0
LTYPE
  5
14
330
5
100
AcDbSymbolTableRecord
100
AcDbLinetypeTableRecord
  2
ByBlock
 70
     0
  3

 72
    65
 73
     0
 40
0.0
  0
LTYPE
  5
15
330
5
100
AcDbSymbolTableRecord
100
AcDbLinetypeTableRecord
  2
ByLayer
 70
     0
  3

 72
    65
 73
     0
 40
0.0
  0
LTYPE
  5
16
330
5
100
AcDbSymbolTableRecord
100
AcDbLinetypeTableRecord
  2
Continuous
 70
     0
  3
Solid line
 72
    65
 73
     0
 40
0.0
  0
LTYPE
  5
6E
330
5
100
AcDbSymbolTableRecord
100
AcDbLinetypeTableRecord
  2
HIDDEN
 70
     0
  3
Hidden __ __ __ __ __ __ __ __ __ __ __ __ __ __
 72
    65
 73
     2
 40
1.905
 49
1.27
 74
     0
 49
-0.635
 74
     0
  0
LTYPE
  5
6F
330
5
100
AcDbSymbolTableRecord
100
AcDbLinetypeTableRecord
  2
PHANTOM
 70
     0
  3
Phantom ______  __  __  ______  __  __  ______
 72
    65
 73
     6
 40
12.7
 49
6.35
 74
     0
 49
-1.27
 74
     0
 49
1.27
 74
     0
 49
-1.27
 74
     0
 49
1.27
 74
     0
 49
-1.27
 74
     0
  0
LTYPE
  5
70
330
5
100
AcDbSymbolTableRecord
100
AcDbLinetypeTableRecord
  2
CENTER
 70
     0
  3
Center ____ _ ____ _ ____ _ ____ _ ____ _ ____
 72
    65
 73
     4
 40
10.16
 49
6.35
 74
     0
 49
-1.27
 74
     0
 49
1.27
 74
     0
 49
-1.27
 74
     0
  0
LTYPE
  5
71
330
5
100
AcDbSymbolTableRecord
100
AcDbLinetypeTableRecord
  2
CENTERX2
 70
     0
  3
Center (2x) ________  __  ________  __  _____
 72
    65
 73
     4
 40
20.32
 49
12.7
 74
     0
 49
-2.54
 74
     0
 49
2.54
 74
     0
 49
-2.54
 74
     0
  0
LTYPE
  5
72
330
5
100
AcDbSymbolTableRecord
100
AcDbLinetypeTableRecord
  2
DOT2
 70
     0
  3
Dot (.5x) ........................................
 72
    65
 73
     2
 40
0.635
 49
0.0
 74
     0
 49
-0.635
 74
     0
  0
ENDTAB
  0
TABLE
  2
LAYER
  5
2
330
0
100
AcDbSymbolTable
 70
    17
  0
LAYER
  5
10
330
2
100
AcDbSymbolTableRecord
100
AcDbLayerTableRecord
  2
0
 70
     0
 62
     7
  6
Continuous
370
    -3
390
F
  0
LAYER
  5
73
330
2
100
AcDbSymbolTableRecord
100
AcDbLayerTableRecord
  2
FORMAT
 70
     0
 62
     7
  6
Continuous
370
    -3
390
F
  0
LAYER
  5
74
330
2
100
AcDbSymbolTableRecord
100
AcDbLayerTableRecord
  2
YARDIMCI_GEOMETRI
 70
     0
 62
    -6
  6
Continuous
290
     0
370
    -3
390
F
  0
LAYER
  5
75
330
2
100
AcDbSymbolTableRecord
100
AcDbLayerTableRecord
  2
SAYFA_CERCEVESI
 70
     0
 62
     7
  6
Continuous
370
    25
390
F
  0
LAYER
  5
76
330
2
100
AcDbSymbolTableRecord
100
AcDbLayerTableRecord
  2
ANTET
 70
     0
 62
     7
  6
Continuous
370
    -3
390
F
  0
LAYER
  5
77
330
2
100
AcDbSymbolTableRecord
100
AcDbLayerTableRecord
  2
OLCU
 70
     0
 62
   150
  6
Continuous
370
    -3
390
F
  0
LAYER
  5
78
330
2
100
AcDbSymbolTableRecord
100
AcDbLayerTableRecord
  2
METIN
 70
     0
 62
    96
  6
Continuous
370
    -3
390
F
  0
LAYER
  5
79
330
2
100
AcDbSymbolTableRecord
100
AcDbLayerTableRecord
  2
BALON
 70
     0
 62
     5
  6
Continuous
370
    -3
390
F
  0
LAYER
  5
7A
330
2
100
AcDbSymbolTableRecord
100
AcDbLayerTableRecord
  2
VURGU
 70
     0
 62
     7
  6
Continuous
370
    -3
390
F
  0
LAYER
  5
7B
330
2
100
AcDbSymbolTableRecord
100
AcDbLayerTableRecord
  2
SILIK
 70
     0
 62
     7
  6
Continuous
370
    -3
390
F
  0
LAYER
  5
7C
330
2
100
AcDbSymbolTableRecord
100
AcDbLayerTableRecord
  2
MODEL
 70
     0
 62
     7
  6
Continuous
370
    -3
390
F
  0
LAYER
  5
7D
330
2
100
AcDbSymbolTableRecord
100
AcDbLayerTableRecord
  2
DETAYLANDıRMA
 70
     0
 62
   190
  6
Continuous
370
    -3
390
F
  0
LAYER
  5
7E
330
2
100
AcDbSymbolTableRecord
100
AcDbLayerTableRecord
  2
TOLERANS
 70
     0
 62
   230
  6
Continuous
370
    -3
390
F
  0
LAYER
  5
7F
330
2
100
AcDbSymbolTableRecord
100
AcDbLayerTableRecord
  2
MERKEZ_CIZGILERI
 70
     0
 62
    30
  6
Continuous
370
    -3
390
F
  0
LAYER
  5
80
330
2
100
AcDbSymbolTableRecord
100
AcDbLayerTableRecord
  2
KESIT-DETAY_CIZGILERI
 70
     0
 62
     7
  6
Continuous
370
    -3
390
F
  0
LAYER
  5
81
330
2
100
AcDbSymbolTableRecord
100
AcDbLayerTableRecord
  2
\U+041E\U+0421\U+0415\U+0412\U+042B\U+0415
 70
     0
 62
     7
  6
Continuous
370
    -3
390
F
  0
LAYER
  5
82
330
2
100
AcDbSymbolTableRecord
100
AcDbLayerTableRecord
  2
\U+0412\U+041E\U+0414\U+042F\U+041D\U+042B\U+0415_\U+0417\U+041D\U+0410\U+041A\U+0418
 70
     0
 62
    11
  6
Continuous
370
    -3
390
F
  0
ENDTAB
  0
TABLE
  2
STYLE
  5
3
330
0
100
AcDbSymbolTable
 70
     1
  0
STYLE
  5
11
330
3
100
AcDbSymbolTableRecord
100
AcDbTextStyleTableRecord
  2
Standard
 70
     0
 40
0.0
 41
1.0
 50
0.0
 71
     0
 42
3.5
  3
txt
  4

  0
ENDTAB
  0
TABLE
  2
VIEW
  5
6
330
0
100
AcDbSymbolTable
 70
     0
  0
ENDTAB
  0
TABLE
  2
UCS
  5
7
330
0
100
AcDbSymbolTable
 70
     0
  0
ENDTAB
  0
TABLE
  2
APPID
  5
9
330
0
100
AcDbSymbolTable
 70
     1
  0
APPID
  5
12
330
9
100
AcDbSymbolTableRecord
100
AcDbRegAppTableRecord
  2
ACAD
 70
     0
  0
ENDTAB
  0
TABLE
  2
DIMSTYLE
  5
A
330
0
100
AcDbSymbolTable
 70
     1
100
AcDbDimStyleTable
  0
DIMSTYLE
105
27
330
A
100
AcDbSymbolTableRecord
100
AcDbDimStyleTableRecord
  2
ISO-25
 70
     0
 41
2.5
 42
0.625
 43
3.75
 44
1.25
 73
     0
 74
     0
 77
     1
 78
     8
140
2.5
141
2.5
143
0.0393700787
147
0.625
171
     3
172
     1
178
     0
271
     2
272
     2
274
     3
278
    44
283
     0
284
     8
340
11
  0
ENDTAB
  0
TABLE
  2
BLOCK_RECORD
  5
1
330
0
100
AcDbSymbolTable
 70
     3
  0
BLOCK_RECORD
  5
1F
330
1
100
AcDbSymbolTableRecord
100
AcDbBlockTableRecord
  2
*Model_Space
340
22
  0
BLOCK_RECORD
  5
1B
330
1
100
AcDbSymbolTableRecord
100
AcDbBlockTableRecord
  2
*Paper_Space
340
1E
  0
BLOCK_RECORD
  5
23
330
1
100
AcDbSymbolTableRecord
100
AcDbBlockTableRecord
  2
*Paper_Space0
340
26
  0
BLOCK_RECORD
  5
88
330
1
100
AcDbSymbolTableRecord
100
AcDbBlockTableRecord
  2
SW_CENTERMARKSYMBOL_0
340
0
102
{BLKREFS
331
93
102
}
  0
BLOCK_RECORD
  5
B2
330
1
100
AcDbSymbolTableRecord
100
AcDbBlockTableRecord
  2
SW_CENTERMARKSYMBOL_1
340
0
102
{BLKREFS
331
BD
102
}
  0
ENDTAB
  0
ENDSEC
  0
SECTION
  2
BLOCKS
  0
BLOCK
  5
20
330
1F
100
AcDbEntity
  8
0
100
AcDbBlockBegin
  2
*Model_Space
 70
     0
 10
0.0
 20
0.0
 30
0.0
  3
*Model_Space
  1

  0
ENDBLK
  5
21
330
1F
100
AcDbEntity
  8
0
100
AcDbBlockEnd
  0
BLOCK
  5
1C
330
1B
100
AcDbEntity
 67
     1
  8
0
100
AcDbBlockBegin
  2
*Paper_Space
 70
     0
 10
0.0
 20
0.0
 30
0.0
  3
*Paper_Space
  1

  0
ENDBLK
  5
1D
330
1B
100
AcDbEntity
 67
     1
  8
0
100
AcDbBlockEnd
  0
BLOCK
  5
24
330
23
100
AcDbEntity
  8
0
100
AcDbBlockBegin
  2
*Paper_Space0
 70
     0
 10
0.0
 20
0.0
 30
0.0
  3
*Paper_Space0
  1

  0
ENDBLK
  5
25
330
23
100
AcDbEntity
  8
0
100
AcDbBlockEnd
  0
BLOCK
  5
89
330
88
100
AcDbEntity
  8
0
100
AcDbBlockBegin
  2
SW_CENTERMARKSYMBOL_0
 70
     0
 10
0.0
 20
0.0
 30
0.0
  3
SW_CENTERMARKSYMBOL_0
  1

  0
LINE
  5
8B
330
88
100
AcDbEntity
  8
FORMAT
 62
     0
100
AcDbLine
 10
0.0
 20
0.0
 30
0.0
 11
0.0
 21
2.5
 31
0.0
  0
LINE
  5
8C
330
88
100
AcDbEntity
  8
FORMAT
 62
     0
100
AcDbLine
 10
0.0
 20
0.0
 30
0.0
 11
-2.5
 21
0.0
 31
0.0
  0
LINE
  5
8D
330
88
100
AcDbEntity
  8
FORMAT
 62
     0
100
AcDbLine
 10
0.0
 20
0.0
 30
0.0
 11
0.0
 21
-2.5
 31
0.0
  0
LINE
  5
8E
330
88
100
AcDbEntity
  8
FORMAT
 62
     0
100
AcDbLine
 10
0.0
 20
0.0
 30
0.0
 11
2.5
 21
0.0
 31
0.0
  0
LINE
  5
8F
330
88
100
AcDbEntity
  8
FORMAT
 62
     0
100
AcDbLine
 10
0.0
 20
5.0
 30
0.0
 11
0.0
 21
47.5
 31
0.0
  0
LINE
  5
90
330
88
100
AcDbEntity
  8
FORMAT
 62
     0
100
AcDbLine
 10
-5.0
 20
0.0
 30
0.0
 11
-47.5
 21
0.0
 31
0.0
  0
LINE
  5
91
330
88
100
AcDbEntity
  8
FORMAT
 62
     0
100
AcDbLine
 10
0.0
 20
-5.0
 30
0.0
 11
0.0
 21
-47.5
 31
0.0
  0
LINE
  5
92
330
88
100
AcDbEntity
  8
FORMAT
 62
     0
100
AcDbLine
 10
5.0
 20
0.0
 30
0.0
 11
47.5
 21
0.0
 31
0.0
  0
ENDBLK
  5
8A
330
88
100
AcDbEntity
  8
0
100
AcDbBlockEnd
  0
BLOCK
  5
B3
330
B2
100
AcDbEntity
  8
0
100
AcDbBlockBegin
  2
SW_CENTERMARKSYMBOL_1
 70
     0
 10
0.0
 20
0.0
 30
0.0
  3
SW_CENTERMARKSYMBOL_1
  1

  0
LINE
  5
B5
330
B2
100
AcDbEntity
  8
FORMAT
 62
     0
100
AcDbLine
 10
0.0
 20
0.0
 30
0.0
 11
0.0
 21
2.5
 31
0.0
  0
LINE
  5
B6
330
B2
100
AcDbEntity
  8
FORMAT
 62
     0
100
AcDbLine
 10
0.0
 20
0.0
 30
0.0
 11
-2.5
 21
0.0
 31
0.0
  0
LINE
  5
B7
330
B2
100
AcDbEntity
  8
FORMAT
 62
     0
100
AcDbLine
 10
0.0
 20
0.0
 30
0.0
 11
0.0
 21
-2.5
 31
0.0
  0
LINE
  5
B8
330
B2
100
AcDbEntity
  8
FORMAT
 62
     0
100
AcDbLine
 10
0.0
 20
0.0
 30
0.0
 11
2.5
 21
0.0
 31
0.0
  0
LINE
  5
B9
330
B2
100
AcDbEntity
  8
FORMAT
 62
     0
100
AcDbLine
 10
0.0
 20
5.0
 30
0.0
 11
0.0
 21
40.0
 31
0.0
  0
LINE
  5
BA
330
B2
100
AcDbEntity
  8
FORMAT
 62
     0
100
AcDbLine
 10
-5.0
 20
0.0
 30
0.0
 11
-40.0
 21
0.0
 31
0.0
  0
LINE
  5
BB
330
B2
100
AcDbEntity
  8
FORMAT
 62
     0
100
AcDbLine
 10
0.0
 20
-5.0
 30
0.0
 11
0.0
 21
-40.0
 31
0.0
  0
LINE
  5
BC
330
B2
100
AcDbEntity
  8
FORMAT
 62
     0
100
AcDbLine
 10
5.0
 20
0.0
 30
0.0
 11
40.0
 21
0.0
 31
0.0
  0
ENDBLK
  5
B4
330
B2
100
AcDbEntity
  8
0
100
AcDbBlockEnd
  0
ENDSEC
  0
SECTION
  2
ENTITIES
  0
LINE
  5
83
330
1F
100
AcDbEntity
  8
0
  6
Continuous
 62
     7
370
    25
100
AcDbLine
 10
143.4132225589
 20
77.5029005303
 30
0.0
 11
254.5275510204
 21
77.5029005303
 31
0.0
  0
LINE
  5
84
330
1F
100
AcDbEntity
  8
0
  6
Continuous
 62
     7
370
    25
100
AcDbLine
 10
254.5275510204
 20
152.5029005303
 30
0.0
 11
143.4276197648
 21
152.5029005303
 31
0.0
  0
CIRCLE
  5
85
330
1F
100
AcDbEntity
  8
0
  6
Continuous
 62
     7
370
    25
100
AcDbCircle
 10
118.5275510204
 20
115.0029005303
 30
0.0
 40
36.8
  0
CIRCLE
  5
86
330
1F
100
AcDbEntity
  8
0
  6
Continuous
 62
     7
370
    25
100
AcDbCircle
 10
118.5275510204
 20
115.0029005303
 30
0.0
 40
45.00000000000001
  0
LINE
  5
87
330
1F
100
AcDbEntity
  8
0
  6
Continuous
 62
     7
370
    25
100
AcDbLine
 10
254.5275510204
 20
152.5029005303
 30
0.0
 11
254.5275510204
 21
77.5029005303
 31
0.0
  0
INSERT
  5
93
330
1F
100
AcDbEntity
  8
FORMAT
100
AcDbBlockReference
  2
SW_CENTERMARKSYMBOL_0
 10
118.5275510204
 20
115.0029005303
 30
0.0
  0
LINE
  5
94
330
1F
100
AcDbEntity
  8
0
  6
Continuous
 62
     7
370
    25
100
AcDbLine
 10
73.5275510204
 20
12.7957218901
 30
0.0
 11
73.5275510204
 21
-277.2042781099
 31
0.0
  0
LINE
  5
95
330
1F
100
AcDbEntity
  8
0
  6
Continuous
 62
     7
370
    25
100
AcDbLine
 10
163.5275510204
 20
-94.7319499515
 30
0.0
 11
163.5275510204
 21
12.7957218901
 31
0.0
  0
LINE
  5
96
330
1F
100
AcDbEntity
  8
0
  6
Continuous
 62
     7
370
    25
100
AcDbLine
 10
163.5275510204
 20
-277.2042781099
 30
0.0
 11
163.5275510204
 21
-169.7042781099
 31
0.0
  0
LINE
  5
97
330
1F
100
AcDbEntity
  8
0
  6
Continuous
 62
     7
370
    25
100
AcDbLine
 10
163.5275510204
 20
-169.7042781099
 30
0.0
 11
254.5275510204
 21
-169.7042781099
 31
0.0
  0
LINE
  5
98
330
1F
100
AcDbEntity
  8
0
  6
Continuous
 62
     7
370
    25
100
AcDbLine
 10
254.5275510204
 20
-94.7042781099
 30
0.0
 11
163.5044718812
 21
-94.7042781099
 31
0.0
  0
LWPOLYLINE
  5
99
330
1F
100
AcDbEntity
  8
0
  6
Continuous
 62
     7
370
    25
100
AcDbPolyline
 90
       34
 70
   128
 43
0.0
 10
163.5044718305
 20
-94.7319499515
 10
163.5010528826
 20
-94.736079998
 10
163.0708107825
 20
-95.253608424
 10
162.1111123698
 20
-96.4163357285
 10
160.713227944
 20
-98.1325693547
 10
158.9112090244
 20
-100.3909187497
 10
157.4561089338
 20
-102.2594836415
 10
155.8900277851
 20
-104.3258873746
 10
154.1968379951
 20
-106.6393549045
 10
152.4555497184
 20
-109.1313698483
 10
150.720727218
 20
-111.767023436
 10
149.0187008653
 20
-114.5702139481
 10
147.3558892757
 20
-117.6314456349
 10
145.8576596608
 20
-120.8824037821
 10
144.5663185489
 20
-124.5057448468
 10
143.6899221271
 20
-128.4102143638
 10
143.4027657998
 20
-132.3664826822
 10
143.7644657253
 20
-136.4647785289
 10
144.8125737981
 20
-140.698536313
 10
146.4036884022
 20
-144.7871647154
 10
147.8682467142
 20
-147.7658139362
 10
149.4538899035
 20
-150.5805790628
 10
151.1471318088
 20
-153.306752218
 10
152.861373614
 20
-155.8698939669
 10
154.5904712867
 20
-158.3155792358
 10
156.2634754313
 20
-160.5812052012
 10
157.8897754161
 20
-162.7107366048
 10
159.3819357957
 20
-164.6130848661
 10
161.2161452101
 20
-166.896727921
 10
161.9807617897
 20
-167.8333929586
 10
162.6059541944
 20
-168.5932273441
 10
163.2874690485
 20
-169.4158389732
 10
163.5275510204
 20
-169.7042781099
 10
163.5275510204
 20
-169.7042781099
  0
LINE
  5
9A
330
1F
100
AcDbEntity
  8
0
  6
Continuous
 62
     7
370
    25
100
AcDbLine
 10
163.5275510204
 20
-277.2042781099
 30
0.0
 11
73.5275510204
 21
-277.2042781099
 31
0.0
  0
LINE
  5
9B
330
1F
100
AcDbEntity
  8
0
  6
Continuous
 62
     7
370
    25
100
AcDbLine
 10
163.5275510204
 20
12.7957218901
 30
0.0
 11
73.5275510204
 21
12.7957218901
 31
0.0
  0
LINE
  5
9C
330
1F
100
AcDbEntity
  8
0
  6
Continuous
 62
     7
370
    25
100
AcDbLine
 10
254.5275510204
 20
-94.7042781099
 30
0.0
 11
254.5275510204
 21
-169.7042781099
 31
0.0
  0
LINE
  5
9D
330
1F
100
AcDbEntity
  8
0
  6
Continuous
 62
     7
370
    25
100
AcDbLine
 10
163.5275510204
 20
411.3857459233
 30
0.0
 11
163.5275510204
 21
518.8857459233
 31
0.0
  0
LINE
  5
9E
330
1F
100
AcDbEntity
  8
0
  6
Continuous
 62
     7
370
    25
100
AcDbLine
 10
163.5275510204
 20
228.8857459233
 30
0.0
 11
163.5275510204
 21
336.4135070533
 31
0.0
  0
LINE
  5
9F
330
1F
100
AcDbEntity
  8
0
  6
Continuous
 62
     7
370
    25
100
AcDbLine
 10
73.5275510204
 20
518.8857459233
 30
0.0
 11
73.5275510204
 21
228.8857459233
 31
0.0
  0
LINE
  5
A0
330
1F
100
AcDbEntity
  8
0
  6
Continuous
 62
     7
370
    25
100
AcDbLine
 10
163.5044194601
 20
336.3857459233
 30
0.0
 11
254.5275510204
 21
336.3857459233
 31
0.0
  0
LINE
  5
A1
330
1F
100
AcDbEntity
  8
0
  6
Continuous
 62
     7
370
    25
100
AcDbLine
 10
254.5275510204
 20
411.3857459233
 30
0.0
 11
163.5275510204
 21
411.3857459233
 31
0.0
  0
SPLINE
  5
A2
330
1F
100
AcDbEntity
  8
0
  6
Continuous
 62
     7
370
    25
100
AcDbSpline
210
0.0
220
0.0
230
1.0
 70
     8
 71
     3
 72
    42
 73
    38
 74
     0
 42
0.000000001
 43
0.00000001
 40
0.0
 40
0.0
 40
0.0
 40
0.0
 40
0.0208043118888499
 40
0.0417809621062852
 40
0.0632879022498588
 40
0.0849694964475151
 40
0.1266709159197749
 40
0.1693963292918007
 40
0.1978098375772487
 40
0.2264408088666174
 40
0.2556851029955807
 40
0.2851154336612942
 40
0.3140991851599601
 40
0.3432524129925925
 40
0.3729875080112576
 40
0.4029732291762873
 40
0.4347682019403173
 40
0.4672308992353916
 40
0.4990991614676764
 40
0.5321913674350519
 40
0.5669391568482164
 40
0.6026800419939158
 40
0.6302970091038812
 40
0.6581265017462938
 40
0.6865073006311393
 40
0.7150499186625102
 40
0.7441073177807654
 40
0.7733420847519121
 40
0.8031858017914856
 40
0.8332715282441653
 40
0.8772565700534896
 40
0.8997604989412034
 40
0.9224330633142103
 40
0.9443863665048933
 40
0.9665258105439768
 40
0.9892862308723513
 40
1.0
 40
1.0
 40
1.0
 40
1.0
 10
163.527551020408
 20
411.3857459232503
 30
0.0
 10
163.5128520012468
 20
411.3681137364691
 30
0.0
 10
163.4833321994934
 20
411.3327033017625
 30
0.0
 10
163.2435475496266
 20
411.0446526102832
 30
0.0
 10
162.8586381710803
 20
410.5808115312107
 30
0.0
 10
162.1515361281124
 20
409.7245862052608
 30
0.0
 10
160.9383815599433
 20
408.2427170481091
 30
0.0
 10
159.270062413684
 20
406.1628846431342
 30
0.0
 10
157.5868378589549
 20
404.0086225880632
 30
0.0
 10
156.0176425265353
 20
401.9471183912356
 30
0.0
 10
154.3464026074239
 20
399.676112460357
 30
0.0
 10
152.6174044788643
 20
397.2203977469945
 30
0.0
 10
150.8758067152729
 20
394.5999069973524
 30
0.0
 10
149.1543154807756
 20
391.8042901147956
 30
0.0
 10
147.490927869385
 20
388.8020478293741
 30
0.0
 10
145.9299411500502
 20
385.5186133707464
 30
0.0
 10
144.5855935539319
 20
381.9229450983235
 30
0.0
 10
143.643144462914
 20
378.0369573687554
 30
0.0
 10
143.2878094872621
 20
373.9481971556789
 30
0.0
 10
143.6270880073402
 20
369.7580640793238
 30
0.0
 10
144.6561671418156
 20
365.5725344831341
 30
0.0
 10
146.1008136767418
 20
361.8552525498226
 30
0.0
 10
147.6822898806925
 20
358.613457921349
 30
0.0
 10
149.2582356386225
 20
355.7950427191697
 30
0.0
 10
150.9199163972061
 20
353.1043169888841
 30
0.0
 10
152.6298663950047
 20
350.5335952097043
 30
0.0
 10
154.3424948593398
 20
348.1009972184328
 30
0.0
 10
156.0300573027192
 20
345.8072355282139
 30
0.0
 10
157.6505109004339
 20
343.6795662571001
 30
0.0
 10
159.3940506435459
 20
341.4517849575615
 30
0.0
 10
160.8004900466711
 20
339.7020382950569
 30
0.0
 10
161.8570978692675
 20
338.4063475669146
 30
0.0
 10
162.5138750196733
 20
337.6076690156787
 30
0.0
 10
163.0195811019254
 20
336.9965019503363
 30
0.0
 10
163.3563001427426
 20
336.5912817546526
 30
0.0
 10
163.5249451608191
 20
336.3888714733348
 30
0.0
 10
163.5093960647222
 20
336.4075339347029
 30
0.0
 10
163.5044194117118
 20
336.4135070532668
 30
0.0
  0
LINE
  5
A3
330
1F
100
AcDbEntity
  8
0
  6
Continuous
 62
     7
370
    25
100
AcDbLine
 10
73.5275510204
 20
518.8857459233
 30
0.0
 11
163.5275510204
 21
518.8857459233
 31
0.0
  0
LINE
  5
A4
330
1F
100
AcDbEntity
  8
0
  6
Continuous
 62
     7
370
    25
100
AcDbLine
 10
73.5275510204
 20
228.8857459233
 30
0.0
 11
163.5275510204
 21
228.8857459233
 31
0.0
  0
LINE
  5
A5
330
1F
100
AcDbEntity
  8
0
  6
Continuous
 62
     7
370
    25
100
AcDbLine
 10
254.5275510204
 20
411.3857459233
 30
0.0
 11
254.5275510204
 21
336.3857459233
 31
0.0
  0
LINE
  5
A6
330
1F
100
AcDbEntity
  8
0
  6
Continuous
 62
     7
370
    25
100
AcDbLine
 10
310.2052023634
 20
70.0029005303
 30
0.0
 11
600.2052023634
 21
70.0029005303
 31
0.0
  0
LINE
  5
A7
330
1F
100
AcDbEntity
  8
0
  6
Continuous
 62
     7
370
    25
100
AcDbLine
 10
600.2052023634
 20
160.0029005303
 30
0.0
 11
310.2052023634
 21
160.0029005303
 31
0.0
  0
LINE
  5
A8
330
1F
100
AcDbEntity
  8
0
  6
Continuous
 62
     7
370
    25
100
AcDbLine
 10
600.2052023634
 20
160.0029005303
 30
0.0
 11
600.2052023634
 21
70.0029005303
 31
0.0
  0
LINE
  5
A9
330
1F
100
AcDbEntity
  8
0
  6
Continuous
 62
     7
370
    25
100
AcDbLine
 10
310.2052023634
 20
160.0029005303
 30
0.0
 11
310.2052023634
 21
70.0029005303
 31
0.0
  0
LINE
  5
AA
330
1F
100
AcDbEntity
  8
0
  6
Continuous
 62
     7
370
    25
100
AcDbLine
 10
21.5357754374
 20
160.0029005303
 30
0.0
 11
-268.4642245626
 21
160.0029005303
 31
0.0
  0
LINE
  5
AB
330
1F
100
AcDbEntity
  8
0
  6
Continuous
 62
     7
370
    25
100
AcDbLine
 10
-268.4642245626
 20
70.0029005303
 30
0.0
 11
21.5357754374
 21
70.0029005303
 31
0.0
  0
CIRCLE
  5
AC
330
1F
100
AcDbEntity
  8
0
  6
Continuous
 62
     7
370
    25
100
AcDbCircle
 10
-123.4642245626
 20
115.0029005303
 30
0.0
 40
30.69999999999999
  0
CIRCLE
  5
AD
330
1F
100
AcDbEntity
  8
0
  6
Continuous
 62
     7
370
    25
100
AcDbCircle
 10
-123.4642245626
 20
115.0029005303
 30
0.0
 40
37.49999999999999
  0
LINE
  5
AE
330
1F
100
AcDbEntity
  8
0
  6
Continuous
 62
     7
370
    25
100
AcDbLine
 10
-268.4642245626
 20
115.0029005303
 30
0.0
 11
-268.4642245626
 21
160.0029005303
 31
0.0
  0
LINE
  5
AF
330
1F
100
AcDbEntity
  8
0
  6
Continuous
 62
     7
370
    25
100
AcDbLine
 10
-268.4642245626
 20
70.0029005303
 30
0.0
 11
-268.4642245626
 21
115.0029005303
 31
0.0
  0
LINE
  5
B0
330
1F
100
AcDbEntity
  8
0
  6
Continuous
 62
     7
370
    25
100
AcDbLine
 10
21.5357754374
 20
115.0029005303
 30
0.0
 11
21.5357754374
 21
160.0029005303
 31
0.0
  0
LINE
  5
B1
330
1F
100
AcDbEntity
  8
0
  6
Continuous
 62
     7
370
    25
100
AcDbLine
 10
21.5357754374
 20
70.0029005303
 30
0.0
 11
21.5357754374
 21
115.0029005303
 31
0.0
  0
INSERT
  5
BD
330
1F
100
AcDbEntity
  8
FORMAT
100
AcDbBlockReference
  2
SW_CENTERMARKSYMBOL_1
 10
-123.4642245626
 20
115.0029005303
 30
0.0
  0
LINE
  5
BE
330
1F
100
AcDbEntity
  8
0
  6
Continuous
 62
     7
370
    25
100
AcDbLine
 10
466.9638968016
 20
-91.4275945595
 30
0.0
 11
379.4309754591
 21
-40.8959146655
 31
0.0
  0
LINE
  5
BF
330
1F
100
AcDbEntity
  8
0
  6
Continuous
 62
     7
370
    25
100
AcDbLine
 10
584.4919420032
 20
-159.2750908798
 30
0.0
 11
541.9699923492
 21
-134.7276918507
 31
0.0
  0
LINE
  5
C0
330
1F
100
AcDbEntity
  8
0
  6
Continuous
 62
     7
370
    25
100
AcDbLine
 10
334.4346324904
 20
-118.8403122798
 30
0.0
 11
539.4955990345
 21
-237.219488494
 31
0.0
  0
LINE
  5
C1
330
1F
100
AcDbEntity
  8
0
  6
Continuous
 62
     7
370
    25
100
AcDbLine
 10
503.9128603732
 20
-156.6976064976
 30
0.0
 11
574.3782857251
 21
-116.0187823151
 31
0.0
  0
LINE
  5
C2
330
1F
100
AcDbEntity
  8
0
  6
Continuous
 62
     7
370
    25
100
AcDbLine
 10
536.8813332512
 20
-51.0651176366
 30
0.0
 11
466.4178099004
 21
-91.7428438172
 31
0.0
  0
SPLINE
  5
C3
330
1F
100
AcDbEntity
  8
0
  6
Continuous
 62
     7
370
    25
100
AcDbSpline
210
0.0
220
0.0
230
1.0
 70
     8
 71
     3
 72
    33
 73
    29
 74
     0
 42
0.000000001
 43
0.00000001
 40
0.0
 40
0.0
 40
0.0
 40
0.0
 40
0.0276063877369429
 40
0.0554414606977126
 40
0.0839802045797886
 40
0.1127507065494474
 40
0.1680866177433719
 40
0.2247813228636821
 40
0.2624847725564987
 40
0.3004767858911578
 40
0.3392826510949982
 40
0.3783353784298336
 40
0.4167955152619585
 40
0.455480539579558
 40
0.4949376755264605
 40
0.534727381116162
 40
0.5769178823400829
 40
0.6199944240350349
 40
0.6622821770925412
 40
0.7061940485299121
 40
0.7523028048620827
 40
0.7997293546400897
 40
0.8363758299587333
 40
0.8733043171162731
 40
0.910964362903183
 40
0.9488391354316504
 40
0.9873969993481004
 40
1.0
 40
1.0
 40
1.0
 40
1.0
 10
464.7665881056924
 20
-105.3808669670861
 30
0.0
 10
464.7686621684069
 20
-106.1067120794632
 30
0.0
 10
464.7728274749136
 20
-107.5644150449484
 30
0.0
 10
464.8069567202388
 20
-109.9298607111769
 30
0.0
 10
464.8627698609315
 20
-112.4201864863372
 30
0.0
 10
464.9682159455609
 20
-115.8240322144717
 30
0.0
 10
465.1582258536343
 20
-120.2221694746213
 30
0.0
 10
465.4492096694195
 20
-124.9616093088359
 30
0.0
 10
465.7822834801064
 20
-129.119576822552
 30
0.0
 10
466.130398416561
 20
-132.6696175149781
 30
0.0
 10
466.5544970306321
 20
-136.190909633061
 30
0.0
 10
467.0683632556519
 20
-139.6353031533344
 30
0.0
 10
467.6898344463762
 20
-142.9675481786183
 30
0.0
 10
468.4493559746459
 20
-146.1845847204205
 30
0.0
 10
469.396069198717
 20
-149.2851058803014
 30
0.0
 10
470.6140236559849
 20
-152.2825930354059
 30
0.0
 10
472.2059478502451
 20
-155.1044655778352
 30
0.0
 10
474.2873436857965
 20
-157.6017839524712
 30
0.0
 10
476.9272750930726
 20
-159.6066350225495
 30
0.0
 10
480.1300484159667
 20
-160.9967081747983
 30
0.0
 10
483.8173508597174
 20
-161.7109166157392
 30
0.0
 10
487.4673238000713
 20
-161.7666642726157
 30
0.0
 10
490.8780737030112
 20
-161.3961777119956
 30
0.0
 10
493.984706780522
 20
-160.7597660229221
 30
0.0
 10
497.0648071485856
 20
-159.85252619966
 30
0.0
 10
500.0822816754836
 20
-158.6653984947353
 30
0.0
 10
502.3748891471165
 20
-157.6003027812786
 30
0.0
 10
503.5960970511535
 20
-156.8543295619598
 30
0.0
 10
503.8969302004863
 20
-156.6705660339449
 30
0.0
  0
SPLINE
  5
C4
330
1F
100
AcDbEntity
  8
0
  6
Continuous
 62
     7
370
    25
100
AcDbSpline
210
0.0
220
0.0
230
1.0
 70
     8
 71
     3
 72
    15
 73
    11
 74
     0
 42
0.000000001
 43
0.00000001
 40
0.0
 40
0.0
 40
0.0
 40
0.0
 40
0.0989501144101441
 40
0.2213230739306383
 40
0.3447332839678459
 40
0.5214884392853698
 40
0.6119296690110541
 40
0.7030490358557812
 40
0.8497242453782475
 40
1.0
 40
1.0
 40
1.0
 40
1.0
 10
466.4286160793371
 20
-91.76086382083297
 30
0.0
 10
466.3087913137838
 20
-91.84226384817327
 30
0.0
 10
466.0407776222045
 20
-92.02433240237747
 30
0.0
 10
465.7164856559878
 20
-92.67697080600075
 30
0.0
 10
465.3832172784165
 20
-93.82997490990147
 30
0.0
 10
465.1515077216905
 20
-95.3750398195485
 30
0.0
 10
464.9913836182376
 20
-97.18809286801753
 30
0.0
 10
464.877328163037
 20
-99.10428148289911
 30
0.0
 10
464.7860453489006
 20
-101.7287899052207
 30
0.0
 10
464.7731260690638
 20
-104.1537071991658
 30
0.0
 10
464.7665881056924
 20
-105.3808669670861
 30
0.0
  0
LWPOLYLINE
  5
C5
330
1F
100
AcDbEntity
  8
0
  6
Continuous
 62
     7
370
    25
100
AcDbPolyline
 90
       86
 70
   128
 43
0.0
 10
388.7526091281
 20
-61.4989309566
 10
388.6657147574
 20
-58.8354318856
 10
388.405506232
 20
-56.2868060279
 10
387.9734047207
 20
-53.8669730942
 10
387.3717702121
 20
-51.5891493727
 10
386.6038886253
 20
-49.4657755468
 10
385.6739538633
 20
-47.508448748
 10
384.5870449072
 20
-45.7278592165
 10
383.3490980768
 20
-44.1337319149
 10
381.9668746084
 20
-42.7347734136
 10
380.4479237273
 20
-41.538624339
 10
378.8005414166
 20
-40.5518176425
 10
377.033725107
 20
-39.77974292
 10
375.1571245366
 20
-39.226616976
 10
373.180989047
 20
-38.8954607925
 10
371.1161116049
 20
-38.7880830298
 10
368.973769855
 20
-38.905070148
 10
366.7656645248
 20
-39.245783204
 10
364.5038555201
 20
-39.8083613413
 10
362.2006960573
 20
-40.5897319531
 10
359.8687651947
 20
-41.5856274641
 10
357.52079913
 20
-42.7906086385
 10
355.1696216397
 20
-44.1980942869
 10
352.8280740398
 20
-45.8003972106
 10
350.5089450515
 20
-47.5887661869
 10
348.224900953
 20
-49.5534337645
 10
345.9884164011
 20
-51.6836696104
 10
343.811706299
 20
-53.9678391152
 10
341.7066590823
 20
-56.3934669369
 10
339.684771789
 20
-58.9473051377
 10
337.7570872665
 20
-61.6154055389
 10
335.934133859
 20
-64.3831959014
 10
334.2258679059
 20
-67.2355595138
 10
332.6416193635
 20
-70.1569177554
 10
331.1900408479
 20
-73.1313151804
 10
329.8790603778
 20
-76.1425066615
 10
328.7158380736
 20
-79.1740461152
 10
327.7067270524
 20
-82.209376324
 10
326.8572387285
 20
-85.231919367
 10
326.1720127127
 20
-88.2251671623
 10
325.6547914718
 20
-91.1727716283
 10
325.3083998888
 20
-94.0586339716
 10
325.1347298345
 20
-96.8669926127
 10
325.1347298345
 20
-99.5825092708
 10
325.3083998888
 20
-102.1903527354
 10
325.6547914718
 20
-104.6762798698
 10
326.1720127127
 20
-107.0267134022
 10
326.8572387285
 20
-109.2288160796
 10
327.7067270524
 20
-111.2705607807
 10
328.7158380736
 20
-113.1407962042
 10
329.8790603778
 20
-114.8293077726
 10
331.1900408479
 20
-116.3268734213
 10
332.6416193635
 20
-117.625313966
 10
334.2258679059
 20
-118.7175377748
 10
335.934133859
 20
-119.5975794999
 10
337.7570872665
 20
-120.2606326585
 10
339.684771789
 20
-120.7030758844
 10
341.7066590823
 20
-120.922492706
 10
343.811706299
 20
-120.9176847447
 10
345.9884164011
 20
-120.68867826
 10
348.224900953
 20
-120.2367240057
 10
350.5089450515
 20
-119.5642903995
 10
352.8280740398
 20
-118.6750500403
 10
355.1696216397
 20
-117.5738596508
 10
357.52079913
 20
-116.266733551
 10
359.8687651947
 20
-114.7608108102
 10
362.2006960573
 20
-113.0643162564
 10
364.5038555201
 20
-111.1865155546
 10
366.7656645248
 20
-109.1376646008
 10
368.973769855
 20
-106.9289535087
 10
371.1161116049
 20
-104.5724454922
 10
373.180989047
 20
-102.081010981
 10
375.1571245366
 20
-99.4682573263
 10
377.033725107
 20
-96.7484544828
 10
378.8005414166
 20
-93.9364570702
 10
380.4479237273
 20
-91.0476232435
 10
381.9668746084
 20
-88.0977308111
 10
383.3490980768
 20
-85.1028910625
 10
384.5870449072
 20
-82.0794607741
 10
385.6739538633
 20
-79.0439528735
 10
386.6038886253
 20
-76.0129462524
 10
387.3717702121
 20
-73.0029952177
 10
387.9734047207
 20
-70.0305390783
 10
388.405506232
 20
-67.1118123589
 10
388.6657147574
 20
-64.2627561326
 10
388.7526091281
 20
-61.4989309566
  0
LWPOLYLINE
  5
C6
330
1F
100
AcDbEntity
  8
0
  6
Continuous
 62
     7
370
    25
100
AcDbPolyline
 90
       12
 70
   128
 43
0.0
 10
593.8135756722
 20
-179.8781071709
 10
593.7266813015
 20
-177.2146080999
 10
593.4664727761
 20
-174.6659822422
 10
593.0343712648
 20
-172.2461493085
 10
592.4327367562
 20
-169.968325587
 10
591.6648551694
 20
-167.8449517611
 10
590.7349204074
 20
-165.8876249623
 10
589.6480114513
 20
-164.1070354308
 10
588.4100646209
 20
-162.5129081291
 10
587.0278411525
 20
-161.1139496279
 10
585.5088902714
 20
-159.9178005533
 10
584.4919420032
 20
-159.2750908798
  0
LWPOLYLINE
  5
C7
330
1F
100
AcDbEntity
  8
0
  6
Continuous
 62
     7
370
    25
100
AcDbPolyline
 90
       33
 70
   128
 43
0.0
 10
539.4955990345
 20
-237.219488494
 10
540.9951004031
 20
-237.9767557141
 10
542.8180538106
 20
-238.6398088728
 10
544.7457383331
 20
-239.0822520987
 10
546.7676256264
 20
-239.3016689203
 10
548.8726728431
 20
-239.296860959
 10
551.0493829452
 20
-239.0678544742
 10
553.2858674971
 20
-238.61590022
 10
555.5699115956
 20
-237.9434666138
 10
557.8890405839
 20
-237.0542262546
 10
560.2305881838
 20
-235.9530358651
 10
562.5817656741
 20
-234.6459097653
 10
564.9297317388
 20
-233.1399870245
 10
567.2616626014
 20
-231.4434924707
 10
569.5648220642
 20
-229.5656917688
 10
571.8266310689
 20
-227.5168408151
 10
574.0347363991
 20
-225.308129723
 10
576.177078149
 20
-222.9516217065
 10
578.2419555911
 20
-220.4601871953
 10
580.2180910807
 20
-217.8474335406
 10
582.0946916511
 20
-215.1276306971
 10
583.8615079606
 20
-212.3156332845
 10
585.5088902714
 20
-209.4267994578
 10
587.0278411525
 20
-206.4769070253
 10
588.4100646209
 20
-203.4820672768
 10
589.6480114513
 20
-200.4586369884
 10
590.7349204074
 20
-197.4231290878
 10
591.6648551694
 20
-194.3921224667
 10
592.4327367562
 20
-191.382171432
 10
593.0343712648
 20
-188.4097152926
 10
593.4664727761
 20
-185.4909885732
 10
593.7266813015
 20
-182.6419323469
 10
593.8135756722
 20
-179.8781071709
  0
LWPOLYLINE
  5
C8
330
1F
100
AcDbEntity
  8
0
  6
Continuous
 62
     7
370
    25
100
AcDbPolyline
 90
       78
 70
   128
 43
0.0
 10
382.9543335224
 20
-64.8462042151
 10
382.8677490295
 20
-62.4469402174
 10
382.6085717561
 20
-60.1636112534
 10
382.1785264844
 20
-58.0114125007
 10
381.5804750947
 20
-56.0046664868
 10
380.8183975202
 20
-54.1567277754
 10
379.8973652615
 20
-52.4798940938
 10
378.8235076364
 20
-50.9853244934
 10
377.6039709901
 20
-49.6829650883
 10
376.2468711378
 20
-48.5814828655
 10
374.7612393551
 20
-47.6882080075
 10
373.1569622765
 20
-47.0090851111
 10
371.4447161011
 20
-46.548633627
 10
369.6358955449
 20
-46.309917784
 10
367.7425380101
 20
-46.2945261965
 10
365.7772434788
 20
-46.5025612932
 10
363.7530906618
 20
-46.9326386347
 10
361.6835499622
 20
-47.5818961272
 10
359.5823938319
 20
-48.4460130693
 10
357.4636051182
 20
-49.5192389054
 10
355.3412840105
 20
-50.7944314944
 10
353.2295542055
 20
-52.2631046402
 10
351.1424689168
 20
-53.9154845653
 10
349.0939173526
 20
-55.7405749539
 10
347.0975322855
 20
-57.7262301306
 10
345.1665993288
 20
-59.8592358877
 10
343.3139685227
 20
-62.1253974239
 10
341.5519688196
 20
-64.5096338081
 10
339.8923260368
 20
-66.9960783405
 10
338.3460848232
 20
-69.568184143
 10
336.9235351589
 20
-72.2088342758
 10
335.6341438774
 20
-74.9004556479
 10
334.4864916647
 20
-77.6251359633
 10
333.4882159571
 20
-80.3647429239
 10
332.6459601147
 20
-83.1010448975
 10
331.9653292111
 20
-85.8158322458
 10
331.4508527327
 20
-88.491038507
 10
331.1059544356
 20
-91.1088606248
 10
330.932929561
 20
-93.6518774249
 10
330.932929561
 20
-96.10316555
 10
331.1059544356
 20
-98.4464120822
 10
331.4508527327
 20
-100.6660231023
 10
331.9653292111
 20
-102.7472274652
 10
332.6459601147
 20
-104.6761750993
 10
333.4882159571
 20
-106.4400291763
 10
334.4864916647
 20
-108.0270515384
 10
335.6341438774
 20
-109.4266808135
 10
336.9235351589
 20
-110.6296026998
 10
338.3460848232
 20
-111.6278119506
 10
339.8923260368
 20
-112.414665648
 10
341.5519688196
 20
-112.9849274105
 10
343.3139685227
 20
-113.3348022401
 10
345.1665993288
 20
-113.4619617776
 10
347.0975322855
 20
-113.3655597972
 10
349.0939173526
 20
-113.0462378382
 10
351.1424689168
 20
-112.5061209355
 10
353.2295542055
 20
-111.7488034781
 10
355.3412840105
 20
-110.7793252886
 10
357.4636051182
 20
-109.6041380845
 10
359.5823938319
 20
-108.2310625427
 10
361.6835499622
 20
-106.6692362544
 10
363.7530906618
 20
-104.9290529159
 10
365.7772434788
 20
-103.0220931601
 10
367.7425380101
 20
-100.9610474896
 10
369.6358955449
 20
-98.7596318234
 10
371.4447161011
 20
-96.4324962194
 10
373.1569622765
 20
-93.9951273811
 10
374.7612393551
 20
-91.4637455961
 10
376.2468711378
 20
-88.8551967925
 10
377.6039709901
 20
-86.1868404321
 10
378.8235076364
 20
-83.4764339863
 10
379.8973652615
 20
-80.7420147629
 10
380.8183975202
 20
-78.0017798705
 10
381.5804750947
 20
-75.2739651203
 10
382.1785264844
 20
-72.5767236695
 10
382.6085717561
 20
-69.9280052147
 10
382.8677490295
 20
-67.3454365405
 10
382.9543335224
 20
-64.8462042151
  0
LWPOLYLINE
  5
C9
330
1F
100
AcDbEntity
  8
0
  6
Continuous
 62
     7
370
    25
100
AcDbPolyline
 90
       71
 70
   128
 43
0.0
 10
577.3379876706
 20
-96.0738144923
 10
577.2505969273
 20
-93.7763043602
 10
576.9891283164
 20
-91.3963932242
 10
576.5556870294
 20
-88.9532427296
 10
575.9537628806
 20
-86.4665236874
 10
575.1882022094
 20
-83.9562576974
 10
574.2651688602
 20
-81.4426559453
 10
573.1920945547
 20
-78.9459564742
 10
571.9776190563
 20
-76.4862612405
 10
570.6315206076
 20
-74.0833742638
 10
569.1646372018
 20
-71.7566421771
 10
567.5887793217
 20
-69.5247984593
 10
565.9166348482
 20
-67.4058126034
 10
564.1616669055
 20
-65.4167454378
 10
562.3380054635
 20
-63.5736117617
 10
560.4603335718
 20
-61.8912514037
 10
558.5437691405
 20
-60.3832097402
 10
556.6037432195
 20
-59.0616286359
 10
554.6558757568
 20
-57.9371486849
 10
552.7158498358
 20
-57.0188235385
 10
550.7992854045
 20
-56.3140470109
 10
548.9216135129
 20
-55.8284935481
 10
547.0979520709
 20
-55.5660725413
 10
545.3429841281
 20
-55.52889685
 10
543.6708396546
 20
-55.7172657911
 10
542.0949817745
 20
-56.1296627285
 10
540.6280983687
 20
-56.7627672848
 10
539.2819999201
 20
-57.6114820741
 10
538.0675244217
 20
-58.6689737442
 10
536.9944501162
 20
-59.9267279937
 10
536.0714167669
 20
-61.3746181252
 10
535.3058560957
 20
-63.0009865785
 10
534.7039319469
 20
-64.7927387912
 10
534.2704906599
 20
-66.7354486281
 10
534.009022049
 20
-68.8134745317
 10
533.9216313057
 20
-71.0100854594
 10
534.009022049
 20
-73.3075955915
 10
534.2704906599
 20
-75.6875067274
 10
534.7039319469
 20
-78.1306572221
 10
535.3058560957
 20
-80.6173762642
 10
536.0714167669
 20
-83.1276422542
 10
536.9944501162
 20
-85.6412440064
 10
538.0675244217
 20
-88.1379434774
 10
539.2819999201
 20
-90.5976387112
 10
540.6280983687
 20
-93.0005256879
 10
542.0949817745
 20
-95.3272577745
 10
543.6708396546
 20
-97.5591014924
 10
545.3429841281
 20
-99.6780873482
 10
547.0979520709
 20
-101.6671545138
 10
548.9216135129
 20
-103.51028819
 10
550.7992854045
 20
-105.192648548
 10
552.7158498358
 20
-106.7006902115
 10
554.6558757568
 20
-108.0222713157
 10
556.6037432195
 20
-109.1467512667
 10
558.5437691405
 20
-110.0650764131
 10
560.4603335718
 20
-110.7698529408
 10
562.3380054635
 20
-111.2554064035
 10
564.1616669055
 20
-111.5178274104
 10
565.9166348482
 20
-111.5550031017
 10
567.5887793217
 20
-111.3666341606
 10
569.1646372018
 20
-110.9542372231
 10
570.6315206076
 20
-110.3211326669
 10
571.9776190563
 20
-109.4724178775
 10
573.1920945547
 20
-108.4149262075
 10
574.2651688602
 20
-107.1571719579
 10
575.1882022094
 20
-105.7092818265
 10
575.9537628806
 20
-104.0829133731
 10
576.5556870294
 20
-102.2911611604
 10
576.9891283164
 20
-100.3484513236
 10
577.2505969273
 20
-98.27042542
 10
577.3379876706
 20
-96.0738144923
  0
LWPOLYLINE
  5
CA
330
1F
100
AcDbEntity
  8
0
  6
Continuous
 62
     7
370
    25
100
AcDbPolyline
 90
       79
 70
   128
 43
0.0
 10
582.1463137827
 20
-98.8496020725
 10
582.0603289299
 20
-96.336055173
 10
581.8029320163
 20
-93.7395335917
 10
581.3757923596
 20
-91.0768767676
 10
580.7816801245
 20
-88.3653530518
 10
580.0244483568
 20
-85.6225477162
 10
579.109007995
 20
-82.8662489058
 10
578.0412960212
 20
-80.1143322762
 10
576.8282369572
 20
-77.3846450627
 10
575.4776979565
 20
-74.6948903342
 10
573.9984377829
 20
-72.0625121824
 10
572.4000500062
 20
-69.5045825898
 10
570.6929007844
 20
-67.0376907112
 10
568.8880616354
 20
-64.6778352872
 10
566.9972376336
 20
-62.4403208856
 10
565.0326914983
 20
-60.3396586461
 10
563.0071640649
 20
-58.3894721693
 10
560.9337916562
 20
-56.6024091629
 10
558.8260208878
 20
-54.9900594162
 10
556.697521462
 20
-53.5628796361
 10
554.5620975143
 20
-52.330125631
 10
552.4335980885
 20
-51.2997922838
 10
550.3258273201
 20
-50.4785617015
 10
548.2524549114
 20
-49.8717598796
 10
546.2269274781
 20
-49.4833221609
 10
544.2623813427
 20
-49.3157677129
 10
542.3715573409
 20
-49.3701831905
 10
540.5667181919
 20
-49.6462156885
 10
538.8595689702
 20
-50.1420750303
 10
537.2611811934
 20
-50.8545453776
 10
535.7819210198
 20
-51.779006087
 10
534.4313820192
 20
-52.9094616759
 10
533.2183229552
 20
-54.2385807061
 10
532.1506109813
 20
-55.7577433306
 10
531.2351706195
 20
-57.4570971969
 10
530.4779388518
 20
-59.3256213431
 10
529.8838266167
 20
-61.351197673
 10
529.45668696
 20
-63.5206895469
 10
529.1992900465
 20
-65.8200269775
 10
529.1133051937
 20
-68.2342978792
 10
529.1992900465
 20
-70.7478447787
 10
529.45668696
 20
-73.34436636
 10
529.8838266167
 20
-76.0070231841
 10
530.4779388518
 20
-78.7185468999
 10
531.2351706195
 20
-81.4613522355
 10
532.1506109813
 20
-84.2176510458
 10
533.2183229552
 20
-86.9695676754
 10
534.4313820192
 20
-89.699254889
 10
535.7819210198
 20
-92.3890096174
 10
537.2611811934
 20
-95.0213877692
 10
538.8595689702
 20
-97.5793173619
 10
540.5667181919
 20
-100.0462092404
 10
542.3715573409
 20
-102.4060646645
 10
544.2623813427
 20
-104.643579066
 10
546.2269274781
 20
-106.7442413055
 10
548.2524549114
 20
-108.6944277823
 10
550.3258273201
 20
-110.4814907887
 10
552.4335980885
 20
-112.0938405354
 10
554.5620975143
 20
-113.5210203156
 10
556.697521462
 20
-114.7537743207
 10
558.8260208878
 20
-115.7841076679
 10
560.9337916562
 20
-116.6053382502
 10
563.0071640649
 20
-117.212140072
 10
565.0326914983
 20
-117.6005777908
 10
566.9972376336
 20
-117.7681322388
 10
568.8880616354
 20
-117.7137167612
 10
570.6929007844
 20
-117.4376842631
 10
572.4000500062
 20
-116.9418249214
 10
573.9984377829
 20
-116.2293545741
 10
575.4776979565
 20
-115.3048938647
 10
576.8282369572
 20
-114.1744382758
 10
578.0412960212
 20
-112.8453192456
 10
579.109007995
 20
-111.326156621
 10
580.0244483568
 20
-109.6268027547
 10
580.7816801245
 20
-107.7582786086
 10
581.3757923596
 20
-105.7327022786
 10
581.8029320163
 20
-103.5632104047
 10
582.0603289299
 20
-101.2638729742
 10
582.1463137827
 20
-98.8496020725
  0
ENDSEC
  0
SECTION
  2
OBJECTS
  0
DICTIONARY
  5
C
330
0
100
AcDbDictionary
281
     1
  3
ACAD_GROUP
350
D
  3
ACAD_LAYOUT
350
1A
  3
ACAD_MLINESTYLE
350
17
  3
ACAD_PLOTSETTINGS
350
19
  3
ACAD_PLOTSTYLENAME
350
E
  3
ACAD_SCALELIST
350
47
  0
DICTIONARY
  5
D
102
{ACAD_REACTORS
330
C
102
}
330
C
100
AcDbDictionary
281
     1
  0
DICTIONARY
  5
1A
102
{ACAD_REACTORS
330
C
102
}
330
C
100
AcDbDictionary
281
     1
  3
Layout1
350
1E
  3
Layout2
350
26
  3
Model
350
22
  0
DICTIONARY
  5
17
102
{ACAD_REACTORS
330
C
102
}
330
C
100
AcDbDictionary
281
     1
  3
Standard
350
18
  0
DICTIONARY
  5
19
102
{ACAD_REACTORS
330
C
102
}
330
C
100
AcDbDictionary
281
     1
  0
ACDBDICTIONARYWDFLT
  5
E
102
{ACAD_REACTORS
330
C
102
}
330
C
100
AcDbDictionary
281
     1
  3
Normal
350
F
100
AcDbDictionaryWithDefault
340
F
  0
DICTIONARY
  5
47
102
{ACAD_REACTORS
330
C
102
}
330
C
100
AcDbDictionary
281
     1
  3
A0
350
48
  3
A1
350
49
  3
A2
350
4A
  3
A3
350
4B
  3
A4
350
4C
  3
A5
350
4D
  3
A6
350
4E
  3
A7
350
4F
  3
A8
350
50
  3
A9
350
51
  3
B0
350
52
  3
B1
350
53
  3
B2
350
54
  3
B3
350
55
  3
B4
350
56
  3
B5
350
57
  3
B6
350
58
  3
B7
350
59
  3
B8
350
5A
  3
B9
350
5B
  3
C0
350
5C
  3
C1
350
5D
  3
C2
350
5E
  3
C3
350
5F
  3
C4
350
60
  3
C5
350
61
  3
C6
350
62
  3
C7
350
63
  3
C8
350
64
  3
C9
350
65
  3
D0
350
66
  3
D1
350
67
  3
D2
350
68
  0
LAYOUT
  5
1E
102
{ACAD_REACTORS
330
1A
102
}
330
1A
100
AcDbPlotSettings
  1

  2
none_device
  4

  6

 40
0.0
 41
0.0
 42
0.0
 43
0.0
 44
0.0
 45
0.0
 46
0.0
 47
0.0
 48
0.0
 49
0.0
140
0.0
141
0.0
142
1.0
143
1.0
 70
   688
 72
     1
 73
     0
 74
     5
  7

 75
    16
147
1.0
148
0.0
149
0.0
100
AcDbLayout
  1
Layout1
 70
     1
 71
     1
 10
0.0
 20
0.0
 11
420.0
 21
297.0
 12
0.0
 22
0.0
 32
0.0
 14
1.0000000000E+20
 24
1.0000000000E+20
 34
1.0000000000E+20
 15
-1.0000000000E+20
 25
-1.0000000000E+20
 35
-1.0000000000E+20
146
0.0
 13
0.0
 23
0.0
 33
0.0
 16
1.0
 26
0.0
 36
0.0
 17
0.0
 27
1.0
 37
0.0
 76
     0
330
1B
  0
LAYOUT
  5
26
102
{ACAD_REACTORS
330
1A
102
}
330
1A
100
AcDbPlotSettings
  1

  2
none_device
  4

  6

 40
0.0
 41
0.0
 42
0.0
 43
0.0
 44
0.0
 45
0.0
 46
0.0
 47
0.0
 48
0.0
 49
0.0
140
0.0
141
0.0
142
1.0
143
1.0
 70
   688
 72
     1
 73
     0
 74
     5
  7

 75
    16
147
1.0
148
0.0
149
0.0
100
AcDbLayout
  1
Layout2
 70
     1
 71
     2
 10
0.0
 20
0.0
 11
0.0
 21
0.0
 12
0.0
 22
0.0
 32
0.0
 14
0.0
 24
0.0
 34
0.0
 15
0.0
 25
0.0
 35
0.0
146
0.0
 13
0.0
 23
0.0
 33
0.0
 16
1.0
 26
0.0
 36
0.0
 17
0.0
 27
1.0
 37
0.0
 76
     0
330
23
  0
LAYOUT
  5
22
102
{ACAD_REACTORS
330
1A
102
}
330
1A
100
AcDbPlotSettings
  1

  2
none_device
  4
Letter_(8.50_x_11.00_Inches)
  6

 40
6.35
 41
6.35
 42
6.35000508
 43
6.35000508
 44
215.9
 45
279.4
 46
0.0
 47
0.0
 48
0.0
 49
0.0
140
0.0
141
0.0
142
1.0
143
1.0
 70
  1712
 72
     1
 73
     0
 74
     0
  7

 75
     0
147
1.0
148
0.0
149
0.0
100
AcDbLayout
  1
Model
 70
     1
 71
     0
 10
0.0
 20
0.0
 11
279.4
 21
215.9
 12
0.0
 22
0.0
 32
0.0
 14
0.0
 24
0.0
 34
0.0
 15
279.4
 25
215.9
 35
0.0
146
0.0
 13
0.0
 23
0.0
 33
0.0
 16
1.0
 26
0.0
 36
0.0
 17
0.0
 27
1.0
 37
0.0
 76
     0
330
1F
331
29
  0
MLINESTYLE
  5
18
102
{ACAD_REACTORS
330
17
102
}
330
17
100
AcDbMlineStyle
  2
Standard
 70
     0
  3

 62
   256
 51
90.0
 52
90.0
 71
     2
 49
0.5
 62
   256
  6
BYLAYER
 49
-0.5
 62
   256
  6
BYLAYER
  0
ACDBPLACEHOLDER
  5
F
102
{ACAD_REACTORS
330
E
102
}
330
E
  0
SCALE
  5
48
102
{ACAD_REACTORS
330
47
102
}
330
47
100
AcDbScale
 70
     0
300
1:1
140
1.0
141
1.0
290
     1
  0
SCALE
  5
49
102
{ACAD_REACTORS
330
47
102
}
330
47
100
AcDbScale
 70
     0
300
1:2
140
1.0
141
2.0
290
     0
  0
SCALE
  5
4A
102
{ACAD_REACTORS
330
47
102
}
330
47
100
AcDbScale
 70
     0
300
1:4
140
1.0
141
4.0
290
     0
  0
SCALE
  5
4B
102
{ACAD_REACTORS
330
47
102
}
330
47
100
AcDbScale
 70
     0
300
1:5
140
1.0
141
5.0
290
     0
  0
SCALE
  5
4C
102
{ACAD_REACTORS
330
47
102
}
330
47
100
AcDbScale
 70
     0
300
1:8
140
1.0
141
8.0
290
     0
  0
SCALE
  5
4D
102
{ACAD_REACTORS
330
47
102
}
330
47
100
AcDbScale
 70
     0
300
1:10
140
1.0
141
10.0
290
     0
  0
SCALE
  5
4E
102
{ACAD_REACTORS
330
47
102
}
330
47
100
AcDbScale
 70
     0
300
1:16
140
1.0
141
16.0
290
     0
  0
SCALE
  5
4F
102
{ACAD_REACTORS
330
47
102
}
330
47
100
AcDbScale
 70
     0
300
1:20
140
1.0
141
20.0
290
     0
  0
SCALE
  5
50
102
{ACAD_REACTORS
330
47
102
}
330
47
100
AcDbScale
 70
     0
300
1:30
140
1.0
141
30.0
290
     0
  0
SCALE
  5
51
102
{ACAD_REACTORS
330
47
102
}
330
47
100
AcDbScale
 70
     0
300
1:40
140
1.0
141
40.0
290
     0
  0
SCALE
  5
52
102
{ACAD_REACTORS
330
47
102
}
330
47
100
AcDbScale
 70
     0
300
1:50
140
1.0
141
50.0
290
     0
  0
SCALE
  5
53
102
{ACAD_REACTORS
330
47
102
}
330
47
100
AcDbScale
 70
     0
300
1:100
140
1.0
141
100.0
290
     0
  0
SCALE
  5
54
102
{ACAD_REACTORS
330
47
102
}
330
47
100
AcDbScale
 70
     0
300
2:1
140
2.0
141
1.0
290
     0
  0
SCALE
  5
55
102
{ACAD_REACTORS
330
47
102
}
330
47
100
AcDbScale
 70
     0
300
4:1
140
4.0
141
1.0
290
     0
  0
SCALE
  5
56
102
{ACAD_REACTORS
330
47
102
}
330
47
100
AcDbScale
 70
     0
300
8:1
140
8.0
141
1.0
290
     0
  0
SCALE
  5
57
102
{ACAD_REACTORS
330
47
102
}
330
47
100
AcDbScale
 70
     0
300
10:1
140
10.0
141
1.0
290
     0
  0
SCALE
  5
58
102
{ACAD_REACTORS
330
47
102
}
330
47
100
AcDbScale
 70
     0
300
100:1
140
100.0
141
1.0
290
     0
  0
SCALE
  5
59
102
{ACAD_REACTORS
330
47
102
}
330
47
100
AcDbScale
 70
     0
300
1/128" = 1'-0"
140
0.0078125
141
12.0
290
     0
  0
SCALE
  5
5A
102
{ACAD_REACTORS
330
47
102
}
330
47
100
AcDbScale
 70
     0
300
1/64" = 1'-0"
140
0.015625
141
12.0
290
     0
  0
SCALE
  5
5B
102
{ACAD_REACTORS
330
47
102
}
330
47
100
AcDbScale
 70
     0
300
1/32" = 1'-0"
140
0.03125
141
12.0
290
     0
  0
SCALE
  5
5C
102
{ACAD_REACTORS
330
47
102
}
330
47
100
AcDbScale
 70
     0
300
1/16" = 1'-0"
140
0.0625
141
12.0
290
     0
  0
SCALE
  5
5D
102
{ACAD_REACTORS
330
47
102
}
330
47
100
AcDbScale
 70
     0
300
3/32" = 1'-0"
140
0.09375
141
12.0
290
     0
  0
SCALE
  5
5E
102
{ACAD_REACTORS
330
47
102
}
330
47
100
AcDbScale
 70
     0
300
1/8" = 1'-0"
140
0.125
141
12.0
290
     0
  0
SCALE
  5
5F
102
{ACAD_REACTORS
330
47
102
}
330
47
100
AcDbScale
 70
     0
300
3/16" = 1'-0"
140
0.1875
141
12.0
290
     0
  0
SCALE
  5
60
102
{ACAD_REACTORS
330
47
102
}
330
47
100
AcDbScale
 70
     0
300
1/4" = 1'-0"
140
0.25
141
12.0
290
     0
  0
SCALE
  5
61
102
{ACAD_REACTORS
330
47
102
}
330
47
100
AcDbScale
 70
     0
300
3/8" = 1'-0"
140
0.375
141
12.0
290
     0
  0
SCALE
  5
62
102
{ACAD_REACTORS
330
47
102
}
330
47
100
AcDbScale
 70
     0
300
1/2" = 1'-0"
140
0.5
141
12.0
290
     0
  0
SCALE
  5
63
102
{ACAD_REACTORS
330
47
102
}
330
47
100
AcDbScale
 70
     0
300
3/4" = 1'-0"
140
0.75
141
12.0
290
     0
  0
SCALE
  5
64
102
{ACAD_REACTORS
330
47
102
}
330
47
100
AcDbScale
 70
     0
300
1" = 1'-0"
140
1.0
141
12.0
290
     0
  0
SCALE
  5
65
102
{ACAD_REACTORS
330
47
102
}
330
47
100
AcDbScale
 70
     0
300
1-1/2" = 1'-0"
140
1.5
141
12.0
290
     0
  0
SCALE
  5
66
102
{ACAD_REACTORS
330
47
102
}
330
47
100
AcDbScale
 70
     0
300
3" = 1'-0"
140
3.0
141
12.0
290
     0
  0
SCALE
  5
67
102
{ACAD_REACTORS
330
47
102
}
330
47
100
AcDbScale
 70
     0
300
6" = 1'-0"
140
6.0
141
12.0
290
     0
  0
SCALE
  5
68
102
{ACAD_REACTORS
330
47
102
}
330
47
100
AcDbScale
 70
     0
300
1'-0" = 1'-0"
140
12.0
141
12.0
290
     0
  0
ENDSEC
  0
EOF
